Virtual Magic Kingdom Community Fansite
VMK Forums | Disney | Virtual Magic Kingdom (Official Site)
VMK Forums Home VMK Forums VMK Forums Gallery Arcade User Control Panel Register! Members Lose Your Marbles? Click Here! Search VMK Forums

Go Back   VMK Forums - Virtual Magic Kingdom Online Community, Forums & Fansite > Other > Off Topic > WAY Off Topic

WAY Off Topic Off Topic archive

Old guitar music. >:D

Login or Register now to see less ads.

 
 
Thread Tools Display Modes
  #1  
Old 11-22-2009, 01:26 AM
Friez's Avatar
Friez Friez is offline
i am a sloth.
Awards Showcase
Arcade Winner Xmas Wishlist '09 Golden Years Award Smilie Story: The Beach Winner Award VMKF's Klingon Appreciation Day Design a Pin Participation's Award Patriot 2009 Award Expert Relocator Participants Award 
Total Awards: 15


Join Date: Sep 2007
Location: Desigining some intense graphics
Posts: 2,434
Born In Park
My Mood: PandaExpress
Friez is Buried in TreasureFriez is Buried in TreasureFriez is Buried in Treasure
guitar music. >:D

Hey guys.
So you may or may not know this, but I play guitar. Lately, I've been scavenging around various guitar websites to find music to play. It's kinda hard though, because all of the music is either too hard or I don't know the song. So I was wondering, does anyone have any suggestions of things I could play? Simple songs though, because I'm still a beginner. xD Maybe later I'll post some of my guitar-playing on here. I dunno yet.

Thanks.
  #2  
Old 11-22-2009, 01:49 AM
Sly cooper's Avatar
Sly cooper Sly cooper is offline
A Key... blade?
Awards Showcase
Guess the Picture Winner's Award VMK Memories Award 2010 Happy St. Patrick's Day 2010 Guess the Picture Participation Award Happy Holidays'09 Award Golden Years Award Smilie Story: The Beach Participant Award VMKF's Klingon Appreciation Day 
Total Awards: 13


Join Date: Jul 2005
Location: Riding the dragons
Posts: 746
Here Since Day 1 VIP
My Mood: Awkward
Sly cooper is as Frosty as a Snowman
You're not alone. I'm a beginner too. Well, slightly more experienced beginner. Try this. It's 'Frosty the Snowman.' I made it as accurate as I could:


E|--------1-0-1-3-1-0-----0-1-3-1-0-------1--------------------------|
B|1-----1-------------3-1-----------3-3-1-----1-3-1-------1----------|
G|--2-3-------------------------------------2-------3-2-0-------------|
D|---------------------------------------------------------------------|
A|---------------------------------------------------------------------|
E|---------------------------------------------------------------------|

E|--------1-0-1-3-1-0-----0-1-3-1-0-------1---------------------------|
B|1-----1-------------3-1-----------3-3-1-----1-3-1-------------------|
G|--2-3-------------------------------------2-------3-2-0-------------|
D|--------------------------------------------------------3------------|
A|---------------------------------------------------------------------|
E|---------------------------------------------------------------------|

E|-------1-1-0----------------------------0-0-3-3-3-1-0---------------|
B|---3-3-------3-1-----3-1------------1-1---------------3-1-----------|
G|-----------------2-3-----3-2--2-0-0---------------------------------|
D|---------------------------------------------------------------------|
A|---------------------------------------------------------------------|
E|---------------------------------------------------------------------|

I memorized it in about 2 days. PM me if you want some more. I've got quite the collection.
__________________
  #3  
Old 11-22-2009, 01:57 AM
Friez's Avatar
Friez Friez is offline
i am a sloth.
Awards Showcase
Arcade Winner Xmas Wishlist '09 Golden Years Award Smilie Story: The Beach Winner Award VMKF's Klingon Appreciation Day Design a Pin Participation's Award Patriot 2009 Award Expert Relocator Participants Award 
Total Awards: 15


Join Date: Sep 2007
Location: Desigining some intense graphics
Posts: 2,434
Born In Park
My Mood: PandaExpress
Friez is Buried in TreasureFriez is Buried in TreasureFriez is Buried in Treasure
Ahh thank you!
 

Thread Tools
Display Modes

Posting Rules
You may not post new threads
You may not post replies
You may not post attachments
You may not edit your posts

BB code is On
Smilies are On
[IMG] code is On
HTML code is Off



All times are GMT. The time now is 03:21 AM.


Powered by vBulletin® Version 3.8.10
Copyright ©2000 - 2024, vBulletin Solutions, Inc.